Би-2 - Серебро аккорды


Скачать песню
Би-2 - Серебро (аккорды)

Длительность mp3: 04:35
Рейтинг: 0
Просмотров: 930
Дата добавления: 2017-03-27

Другие песни исполнителя Би-2
930

Текст песни:

1 куплет
Am F
'Я не вернусь' -
Dm Em Am
Так говорил когда-то,
F Dm Em Am
И туман глотал мои слова
F Dm Em
И превращал их в воду.
Am F
Я всё отдам
Dm Em Am
За продолжение пути,
F Dm Em Am F Dm Em
Оставлю позади свою беспечную свободу.

Припев
Dm Em Am
Не потерять бы в серебре
F
Её одну -
Dm Em
Заветную.

Проигрыш 1

E-7-12-7-8--8-12-5---13-13-13-12-10-8-7-8--8-12-5-

E-13-13-13-12-0-10-7-8--8-12-5---13-13-13-12-10-8-7-8--8-12-5-

E-13-13-13-12-

Не по себе
И далее e--0-10-7-Am (т.е. не - 0, по - 10, се - 7, бе-Am)

2 куплет
Am F
Не по себе
Dm Em Am F
От этой тихой и чужой зимы,
Dm Em Am
С которой я на 'ты' -
F Dm Em
Нам не стерпеть друг друга.
Am F
И до войны
Dm Em Am
Мне не добраться никогда,
F Dm Em Am F Dm Em
Моя безумная звезда ведёт меня по кругу

Припев.

Проигрыш 2

E-5-7-8-7-575-----------------------
B---------------6-----5-6-8-6-565---
G-----------------------------------7-

E-10--12-----15-13--121312--10-
B--------------------------------
G--------------------------------

E-510-10---12---35-5--7-----8-8-8-
B-----------------------------------
G--------------------0--------------

E-15-13--121312--10-
B---------------------
G---------------------

E-1019-19-19-19-19-19-17---812-12-12-13-12-10-
B-----------------------------------------------
G-----------------------------------------------

E-510-10-10--12--35-5-5--7-
B----------------------------
G----------------------------

3 куплет
Am F
А в облаках
Dm Em Am F
Застыл луны неверный свет, и в нём
Dm Em Am F
Перемешались города, и я
Dm Em Am F Dm Em
Зову её несмело.

Припев.

Окончание

E-7-12-7-8--8-12-5---13-13-13-12-10-8-7-8--8-12-5-

E-13-13-13-12-0-10-7-8--8-12-5---13-13-13-12-10-8-7-8--8-12-5-

E-13-13-13-12-0-10-7-8--8-12-5---13-13-13-12-10-8-7-8--8-12-5-

E-13-13-13-12-0-10-7-8--8-12-5---13-13-13-12-10-8-7-8--8-12-5-

Клип Би-2 - Серебро (Видео урок) Как играть на гитаре

Рекомендуем также



Комментарии (0)

Добавить комментарий

Каптча:

/.jpg